999
DXF file: drw0001.dxf
999
Pro/ENGINEER 2004190 by Parametric Technology Corporation
0
SECTION
2
HEADER
9
$ACADVER
1
AC1015
9
$DWGCODEPAGE
3
ANSI_1252
9
$EXTMAX
10
11.0000000000
20
8.5000000000
30
0.0000000000
9
$EXTMIN
10
0.0000000000
20
0.0000000000
30
0.0000000000
9
$LIMMIN
10
0.0000000000
20
0.0000000000
9
$LIMMAX
10
11.0000000000
20
8.5000000000
9
$VIEWCTR
10
5.5000000000
20
4.2500000000
9
$VIEWSIZE
40
8.5000000000
9
$CLAYER
8
0
9
$LTSCALE
40
0.6050000000
9
$CELTYPE
6
BYLAYER
9
$DIMSCALE
40
1
9
$DIMASZ
40
0.1875000000
9
$DIMEXO
40
0.0687500000
9
$DIMDLI
40
0.4180000000
9
$DIMEXE
40
0.1980000000
9
$DIMCEN
40
0.0990000000
9
$DIMLFAC
40
1.0000000000
9
$DIMBLK
1
_CLOSED
9
$DIMTXT
40
0.1562500000
9
$DIMTOL
70
0
9
$DIMLIM
70
0
9
$DIMTFAC
40
1.0000000000
9
$PDMODE
70
3
9
$PDSIZE
40
0.3125000000
9
$HANDSEED
5
24B
9
$MEASUREMENT
70
0
9
$INSUNITS
70
1
0
ENDSEC
0
SECTION
2
CLASSES
0
CLASS
1
ACDBDICTIONARYWDFLT
2
AcDbDictionaryWithDefault
3
AutoCAD 2000
90
0
280
0
281
0
0
CLASS
1
ACDBPLACEHOLDER
2
AcDbPlaceHolder
3
AutoCAD 2000
90
0
280
0
281
0
0
CLASS
1
LAYOUT
2
AcDbLayout
3
AutoCAD 2000
90
0
280
0
281
0
0
ENDSEC
0
SECTION
2
TABLES
0
TABLE
2
VPORT
5
8
100
AcDbSymbolTable
70
2
0
VPORT
5
1F4
100
AcDbSymbolTableRecord
100
AcDbViewportTableRecord
2
*ACTIVE
70
0
10
0.0
20
0.0
11
1.0
21
1.0
12
5.5000000000
22
4.2500000000
13
0.0
23
0.0
14
1.0
24
1.0
15
0.0
25
0.0
16
0.0
26
0.0
36
1.0
17
0.0
27
0.0
37
0.0
40
8.5000000000
41
1.2941176471
42
50.0
43
0.0
44
0.0
50
0.0
51
0.0
71
0
72
100
73
1
74
1
75
0
76
0
77
0
78
0
0
ENDTAB
0
TABLE
2
LTYPE
5
5
100
AcDbSymbolTable
70
6
0
LTYPE
5
14
100
AcDbSymbolTableRecord
100
AcDbLinetypeTableRecord
2
BYBLOCK
70
0
3

72
65
73
0
40
0.0
0
LTYPE
5
15
100
AcDbSymbolTableRecord
100
AcDbLinetypeTableRecord
2
BYLAYER
70
0
3

72
65
73
0
40
0.0
0
LTYPE
5
16
100
AcDbSymbolTableRecord
100
AcDbLinetypeTableRecord
2
CONTINUOUS
70
64
3
Solid line
72
65
73
0
40
0
0
LTYPE
5
1F5
100
AcDbSymbolTableRecord
100
AcDbLinetypeTableRecord
2
CENTER
70
64
3
____ _ ____ _ ____ _ ____ _ ____ _ ____ _ ____
72
65
73
4
40
0.6
49
0.375
74
0
49
-0.075
74
0
49
0.075
74
0
49
-0.075
74
0
0
LTYPE
5
1F6
100
AcDbSymbolTableRecord
100
AcDbLinetypeTableRecord
2
HIDDEN
70
64
3
- - - - - - - - - - - - - - - - - - - -
72
65
73
2
40
0.2
49
0.1
74
0
49
-0.1
74
0
0
LTYPE
5
1F7
100
AcDbSymbolTableRecord
100
AcDbLinetypeTableRecord
2
PHANTOM
70
64
3
_____ _ _ _____ _ _ _____ _ _ _____
72
65
73
6
40
0.8
49
0.45
74
0
49
-0.05
74
0
49
0.1
74
0
49
-0.05
74
0
49
0.1
74
0
49
-0.05
74
0
0
LTYPE
5
1F8
100
AcDbSymbolTableRecord
100
AcDbLinetypeTableRecord
2
DOT
70
64
3
. . . . . . . . . . . . . . . . . . . .
72
65
73
2
40
0.2
49
0.1
74
0
49
-0.1
74
0
0
LTYPE
5
1F9
100
AcDbSymbolTableRecord
100
AcDbLinetypeTableRecord
2
DASHED
70
64
3
- - - - - - - - - - - - - - - - - - - -
72
65
73
2
40
0.2
49
0.1
74
0
49
-0.1
74
0
0
ENDTAB
0
TABLE
2
LAYER
5
2
100
AcDbSymbolTable
70
36
0
LAYER
5
10
100
AcDbSymbolTableRecord
100
AcDbLayerTableRecord
2
0
70
0
62
7
6
CONTINUOUS
370
-3
390
F
0
LAYER
5
1FA
100
AcDbSymbolTableRecord
100
AcDbLayerTableRecord
2
DEFAULT_1
70
0
62
7
6
CENTER
370
-3
390
F
0
LAYER
5
1FB
100
AcDbSymbolTableRecord
100
AcDbLayerTableRecord
2
DEFAULT_2
70
0
62
8
6
HIDDEN
370
-3
390
F
0
LAYER
5
1FC
100
AcDbSymbolTableRecord
100
AcDbLayerTableRecord
2
DEFAULT_3
70
0
62
7
6
PHANTOM
370
-3
390
F
0
LAYER
5
1FD
100
AcDbSymbolTableRecord
100
AcDbLayerTableRecord
2
_2D_DELETED_OBJS
70
0
62
7
6
CONTINUOUS
370
-3
390
F
0
ENDTAB
0
TABLE
2
STYLE
5
3
100
AcDbSymbolTable
70
1
0
STYLE
5
11
100
AcDbSymbolTableRecord
100
AcDbTextStyleTableRecord
2
STANDARD
70
0
40
0.0
41
0.8000000000
50
0.0
71
0
42
0.2
3
txt
4

0
ENDTAB
0
TABLE
2
VIEW
5
6
100
AcDbSymbolTable
70
0
0
ENDTAB
0
TABLE
2
UCS
5
7
100
AcDbSymbolTable
70
0
0
ENDTAB
0
TABLE
2
APPID
5
9
100
AcDbSymbolTable
70
1
0
APPID
5
1FE
100
AcDbSymbolTableRecord
100
AcDbRegAppTableRecord
2
ACAD
70
0
0
ENDTAB
0
TABLE
2
BLOCK_RECORD
5
1
100
AcDbSymbolTable
70
0
0
BLOCK_RECORD
5
1F
100
AcDbSymbolTableRecord
100
AcDbBlockTableRecord
2
*MODEL_SPACE
0
BLOCK_RECORD
5
1B
100
AcDbSymbolTableRecord
100
AcDbBlockTableRecord
2
*PAPER_SPACE
0
ENDTAB
0
TABLE
2
DIMSTYLE
5
A
100
AcDbSymbolTable
70
1
100
AcDbDimStyleTable
71
0
0
DIMSTYLE
105
1FF
100
AcDbSymbolTableRecord
100
AcDbDimStyleTableRecord
2
STANDARD
70
0
3

4

40
1.0
41
0.1875000000
42
0.0625
43
0.38
44
0.18
45
0.0
46
0.0
47
0.0010000000
48
0.0010000000
140
0.1562500000
141
0.09
142
0.0
143
25.4
144
1.0000000000
145
0.0
146
1.0000000000
147
0.09
71
0
72
0
73
1
74
1
75
0
76
0
77
0
78
4
170
0
171
2
172
0
173
0
174
0
175
0
176
0
177
0
178
0
270
2
271
3
272
3
273
2
274
2
275
0
280
0
281
0
282
0
283
1
284
4
285
0
286
0
287
3
288
0
340
11
0
ENDTAB
0
ENDSEC
0
SECTION
2
BLOCKS
0
BLOCK
5
20
100
AcDbEntity
8
0
100
AcDbBlockBegin
2
*MODEL_SPACE
70
0
10
0.0
20
0.0
30
0.0
3
*MODEL_SPACE
1

0
ENDBLK
5
21
100
AcDbEntity
8
0
100
AcDbBlockEnd
0
BLOCK
5
1C
100
AcDbEntity
8
0
100
AcDbBlockBegin
2
*PAPER_SPACE
70
0
10
0.0
20
0.0
30
0.0
3
*PAPER_SPACE
1

0
ENDBLK
5
1D
100
AcDbEntity
8
0
100
AcDbBlockEnd
0
ENDSEC
0
SECTION
2
ENTITIES
0
CIRCLE
5
200
100
AcDbEntity
8
0
100
AcDbCircle
62
7
6
CONTINUOUS
10
5.3460500874
20
4.4402148043
40
0.9810000000
0
CIRCLE
5
201
100
AcDbEntity
8
0
100
AcDbCircle
62
7
6
CONTINUOUS
10
5.3460500874
20
4.4402148043
40
0.1000000000
0
CIRCLE
5
202
100
AcDbEntity
8
0
100
AcDbCircle
62
7
6
CONTINUOUS
10
5.0834444313
20
4.4402148043
40
0.1000000000
0
CIRCLE
5
203
100
AcDbEntity
8
0
100
AcDbCircle
62
7
6
CONTINUOUS
10
5.2147472594
20
4.2127916350
40
0.1000000000
0
CIRCLE
5
204
100
AcDbEntity
8
0
100
AcDbCircle
62
7
6
CONTINUOUS
10
5.4773529155
20
4.2127916350
40
0.1000000000
0
CIRCLE
5
205
100
AcDbEntity
8
0
100
AcDbCircle
62
7
6
CONTINUOUS
10
5.6086557435
20
4.4402148043
40
0.1000000000
0
CIRCLE
5
206
100
AcDbEntity
8
0
100
AcDbCircle
62
7
6
CONTINUOUS
10
5.4773529155
20
4.6676379737
40
0.1000000000
0
CIRCLE
5
207
100
AcDbEntity
8
0
100
AcDbCircle
62
7
6
CONTINUOUS
10
5.2147472594
20
4.6676379737
40
0.1000000000
0
CIRCLE
5
208
100
AcDbEntity
8
0
100
AcDbCircle
62
7
6
CONTINUOUS
10
4.8208387752
20
4.4402148043
40
0.1000000000
0
CIRCLE
5
209
100
AcDbEntity
8
0
100
AcDbCircle
62
7
6
CONTINUOUS
10
4.8912037487
20
4.1776091482
40
0.1000000000
0
CIRCLE
5
20A
100
AcDbEntity
8
0
100
AcDbCircle
62
7
6
CONTINUOUS
10
5.0834444313
20
3.9853684656
40
0.1000000000
0
CIRCLE
5
20B
100
AcDbEntity
8
0
100
AcDbCircle
62
7
6
CONTINUOUS
10
5.3460500874
20
3.9150034921
40
0.1000000000
0
CIRCLE
5
20C
100
AcDbEntity
8
0
100
AcDbCircle
62
7
6
CONTINUOUS
10
5.6086557435
20
3.9853684656
40
0.1000000000
0
CIRCLE
5
20D
100
AcDbEntity
8
0
100
AcDbCircle
62
7
6
CONTINUOUS
10
5.8008964261
20
4.1776091482
40
0.1000000000
0
CIRCLE
5
20E
100
AcDbEntity
8
0
100
AcDbCircle
62
7
6
CONTINUOUS
10
5.8712613996
20
4.4402148043
40
0.1000000000
0
CIRCLE
5
20F
100
AcDbEntity
8
0
100
AcDbCircle
62
7
6
CONTINUOUS
10
5.8008964261
20
4.7028204604
40
0.1000000000
0
CIRCLE
5
210
100
AcDbEntity
8
0
100
AcDbCircle
62
7
6
CONTINUOUS
10
5.6086557435
20
4.8950611431
40
0.1000000000
0
CIRCLE
5
211
100
AcDbEntity
8
0
100
AcDbCircle
62
7
6
CONTINUOUS
10
5.3460500874
20
4.9654261165
40
0.1000000000
0
CIRCLE
5
212
100
AcDbEntity
8
0
100
AcDbCircle
62
7
6
CONTINUOUS
10
5.0834444313
20
4.8950611431
40
0.1000000000
0
CIRCLE
5
213
100
AcDbEntity
8
0
100
AcDbCircle
62
7
6
CONTINUOUS
10
4.8912037487
20
4.7028204604
40
0.1000000000
0
CIRCLE
5
214
100
AcDbEntity
8
0
100
AcDbCircle
62
7
6
CONTINUOUS
10
4.5582331191
20
4.4402148043
40
0.1000000000
0
CIRCLE
5
215
100
AcDbEntity
8
0
100
AcDbCircle
62
7
6
CONTINUOUS
10
4.6057442958
20
4.1707655319
40
0.1000000000
0
CIRCLE
5
216
100
AcDbEntity
8
0
100
AcDbCircle
62
7
6
CONTINUOUS
10
4.7425472766
20
3.9338158184
40
0.1000000000
0
CIRCLE
5
217
100
AcDbEntity
8
0
100
AcDbCircle
62
7
6
CONTINUOUS
10
4.9521416033
20
3.7579452963
40
0.1000000000
0
CIRCLE
5
218
100
AcDbEntity
8
0
100
AcDbCircle
62
7
6
CONTINUOUS
10
5.2092471065
20
3.6643665460
40
0.1000000000
0
CIRCLE
5
219
100
AcDbEntity
8
0
100
AcDbCircle
62
7
6
CONTINUOUS
10
5.4828530683
20
3.6643665460
40
0.1000000000
0
CIRCLE
5
21A
100
AcDbEntity
8
0
100
AcDbCircle
62
7
6
CONTINUOUS
10
5.7399585716
20
3.7579452963
40
0.1000000000
0
CIRCLE
5
21B
100
AcDbEntity
8
0
100
AcDbCircle
62
7
6
CONTINUOUS
10
5.9495528982
20
3.9338158184
40
0.1000000000
0
CIRCLE
5
21C
100
AcDbEntity
8
0
100
AcDbCircle
62
7
6
CONTINUOUS
10
6.0863558791
20
4.1707655319
40
0.1000000000
0
CIRCLE
5
21D
100
AcDbEntity
8
0
100
AcDbCircle
62
7
6
CONTINUOUS
10
6.1338670557
20
4.4402148043
40
0.1000000000
0
CIRCLE
5
21E
100
AcDbEntity
8
0
100
AcDbCircle
62
7
6
CONTINUOUS
10
6.0863558791
20
4.7096640767
40
0.1000000000
0
CIRCLE
5
21F
100
AcDbEntity
8
0
100
AcDbCircle
62
7
6
CONTINUOUS
10
5.9495528982
20
4.9466137903
40
0.1000000000
0
CIRCLE
5
220
100
AcDbEntity
8
0
100
AcDbCircle
62
7
6
CONTINUOUS
10
5.7399585716
20
5.1224843124
40
0.1000000000
0
CIRCLE
5
221
100
AcDbEntity
8
0
100
AcDbCircle
62
7
6
CONTINUOUS
10
5.4828530683
20
5.2160630627
40
0.1000000000
0
CIRCLE
5
222
100
AcDbEntity
8
0
100
AcDbCircle
62
7
6
CONTINUOUS
10
5.2092471065
20
5.2160630627
40
0.1000000000
0
CIRCLE
5
223
100
AcDbEntity
8
0
100
AcDbCircle
62
7
6
CONTINUOUS
10
4.9521416033
20
5.1224843124
40
0.1000000000
0
CIRCLE
5
224
100
AcDbEntity
8
0
100
AcDbCircle
62
7
6
CONTINUOUS
10
4.7425472766
20
4.9466137903
40
0.1000000000
0
CIRCLE
5
225
100
AcDbEntity
8
0
100
AcDbCircle
62
7
6
CONTINUOUS
10
4.6057442958
20
4.7096640767
40
0.1000000000
0
CIRCLE
5
226
100
AcDbEntity
8
0
100
AcDbCircle
62
7
6
CONTINUOUS
10
5.3460500874
20
4.4402148043
40
0.0099999913
0
CIRCLE
5
227
100
AcDbEntity
8
0
100
AcDbCircle
62
7
6
CONTINUOUS
10
5.0834444313
20
4.4402148043
40
0.0099999913
0
CIRCLE
5
228
100
AcDbEntity
8
0
100
AcDbCircle
62
7
6
CONTINUOUS
10
5.2147472594
20
4.2127916350
40
0.0099999913
0
CIRCLE
5
229
100
AcDbEntity
8
0
100
AcDbCircle
62
7
6
CONTINUOUS
10
5.4773529155
20
4.2127916350
40
0.0099999913
0
CIRCLE
5
22A
100
AcDbEntity
8
0
100
AcDbCircle
62
7
6
CONTINUOUS
10
5.6086557435
20
4.4402148043
40
0.0099999913
0
CIRCLE
5
22B
100
AcDbEntity
8
0
100
AcDbCircle
62
7
6
CONTINUOUS
10
5.4773529155
20
4.6676379737
40
0.0099999913
0
CIRCLE
5
22C
100
AcDbEntity
8
0
100
AcDbCircle
62
7
6
CONTINUOUS
10
5.2147472594
20
4.6676379737
40
0.0099999913
0
CIRCLE
5
22D
100
AcDbEntity
8
0
100
AcDbCircle
62
7
6
CONTINUOUS
10
4.8208387752
20
4.4402148043
40
0.0099999913
0
CIRCLE
5
22E
100
AcDbEntity
8
0
100
AcDbCircle
62
7
6
CONTINUOUS
10
4.8912037487
20
4.1776091482
40
0.0099999913
0
CIRCLE
5
22F
100
AcDbEntity
8
0
100
AcDbCircle
62
7
6
CONTINUOUS
10
5.0834444313
20
3.9853684656
40
0.0099999913
0
CIRCLE
5
230
100
AcDbEntity
8
0
100
AcDbCircle
62
7
6
CONTINUOUS
10
5.3460500874
20
3.9150034921
40
0.0099999913
0
CIRCLE
5
231
100
AcDbEntity
8
0
100
AcDbCircle
62
7
6
CONTINUOUS
10
5.6086557435
20
3.9853684656
40
0.0099999913
0
CIRCLE
5
232
100
AcDbEntity
8
0
100
AcDbCircle
62
7
6
CONTINUOUS
10
5.8008964261
20
4.1776091482
40
0.0099999913
0
CIRCLE
5
233
100
AcDbEntity
8
0
100
AcDbCircle
62
7
6
CONTINUOUS
10
5.8712613996
20
4.4402148043
40
0.0099999913
0
CIRCLE
5
234
100
AcDbEntity
8
0
100
AcDbCircle
62
7
6
CONTINUOUS
10
5.8008964261
20
4.7028204604
40
0.0099999913
0
CIRCLE
5
235
100
AcDbEntity
8
0
100
AcDbCircle
62
7
6
CONTINUOUS
10
5.6086557435
20
4.8950611431
40
0.0099999913
0
CIRCLE
5
236
100
AcDbEntity
8
0
100
AcDbCircle
62
7
6
CONTINUOUS
10
5.3460500874
20
4.9654261165
40
0.0099999913
0
CIRCLE
5
237
100
AcDbEntity
8
0
100
AcDbCircle
62
7
6
CONTINUOUS
10
5.0834444313
20
4.8950611431
40
0.0099999913
0
CIRCLE
5
238
100
AcDbEntity
8
0
100
AcDbCircle
62
7
6
CONTINUOUS
10
4.8912037487
20
4.7028204604
40
0.0099999913
0
CIRCLE
5
239
100
AcDbEntity
8
0
100
AcDbCircle
62
7
6
CONTINUOUS
10
4.5582331191
20
4.4402148043
40
0.0099999913
0
CIRCLE
5
23A
100
AcDbEntity
8
0
100
AcDbCircle
62
7
6
CONTINUOUS
10
4.6057442958
20
4.1707655319
40
0.0099999913
0
CIRCLE
5
23B
100
AcDbEntity
8
0
100
AcDbCircle
62
7
6
CONTINUOUS
10
4.7425472766
20
3.9338158184
40
0.0099999913
0
CIRCLE
5
23C
100
AcDbEntity
8
0
100
AcDbCircle
62
7
6
CONTINUOUS
10
4.9521416033
20
3.7579452963
40
0.0099999913
0
CIRCLE
5
23D
100
AcDbEntity
8
0
100
AcDbCircle
62
7
6
CONTINUOUS
10
5.2092471065
20
3.6643665460
40
0.0099999913
0
CIRCLE
5
23E
100
AcDbEntity
8
0
100
AcDbCircle
62
7
6
CONTINUOUS
10
5.4828530683
20
3.6643665460
40
0.0099999913
0
CIRCLE
5
23F
100
AcDbEntity
8
0
100
AcDbCircle
62
7
6
CONTINUOUS
10
5.7399585716
20
3.7579452963
40
0.0099999913
0
CIRCLE
5
240
100
AcDbEntity
8
0
100
AcDbCircle
62
7
6
CONTINUOUS
10
5.9495528982
20
3.9338158184
40
0.0099999913
0
CIRCLE
5
241
100
AcDbEntity
8
0
100
AcDbCircle
62
7
6
CONTINUOUS
10
6.0863558791
20
4.1707655319
40
0.0099999913
0
CIRCLE
5
242
100
AcDbEntity
8
0
100
AcDbCircle
62
7
6
CONTINUOUS
10
6.1338670557
20
4.4402148043
40
0.0099999913
0
CIRCLE
5
243
100
AcDbEntity
8
0
100
AcDbCircle
62
7
6
CONTINUOUS
10
6.0863558791
20
4.7096640767
40
0.0099999913
0
CIRCLE
5
244
100
AcDbEntity
8
0
100
AcDbCircle
62
7
6
CONTINUOUS
10
5.9495528982
20
4.9466137903
40
0.0099999913
0
CIRCLE
5
245
100
AcDbEntity
8
0
100
AcDbCircle
62
7
6
CONTINUOUS
10
5.7399585716
20
5.1224843124
40
0.0099999913
0
CIRCLE
5
246
100
AcDbEntity
8
0
100
AcDbCircle
62
7
6
CONTINUOUS
10
5.4828530683
20
5.2160630627
40
0.0099999913
0
CIRCLE
5
247
100
AcDbEntity
8
0
100
AcDbCircle
62
7
6
CONTINUOUS
10
5.2092471065
20
5.2160630627
40
0.0099999913
0
CIRCLE
5
248
100
AcDbEntity
8
0
100
AcDbCircle
62
7
6
CONTINUOUS
10
4.9521416033
20
5.1224843124
40
0.0099999913
0
CIRCLE
5
249
100
AcDbEntity
8
0
100
AcDbCircle
62
7
6
CONTINUOUS
10
4.7425472766
20
4.9466137903
40
0.0099999913
0
CIRCLE
5
24A
100
AcDbEntity
8
0
100
AcDbCircle
62
7
6
CONTINUOUS
10
4.6057442958
20
4.7096640767
40
0.0099999913
0
ENDSEC
0
SECTION
2
OBJECTS
0
DICTIONARY
5
C
100
AcDbDictionary
280
0
281
1
3
ACAD_GROUP
350
D
3
ACAD_MLINESTYLE
350
17
3
ACAD_LAYOUT
350
1A
3
ACAD_PLOTSETTINGS
350
19
3
ACAD_PLOTSTYLENAME
350
E
0
DICTIONARY
5
D
102
{ACAD_REACTORS
330
C
102
}
100
AcDbDictionary
280
0
281
1
0
ACDBDICTIONARYWDFLT
5
E
102
{ACAD_REACTORS
330
C
102
}
100
AcDbDictionary
281
1
3
Normal
350
F
100
AcDbDictionaryWithDefault
340
F
0
DICTIONARY
5
17
102
{ACAD_REACTORS
330
C
102
}
100
AcDbDictionary
280
0
281
1
3
Standard
350
18
0
DICTIONARY
5
19
102
{ACAD_REACTORS
330
C
102
}
100
AcDbDictionary
281
1
0
DICTIONARY
5
1A
102
{ACAD_REACTORS
330
C
102
}
100
AcDbDictionary
281
1
3
Layout1
350
1E
3
Model
350
22
0
ACDBPLACEHOLDER
5
F
102
{ACAD_REACTORS
330
E
102
}
0
MLINESTYLE
5
18
102
{ACAD_REACTORS
330
17
102
}
100
AcDbMlineStyle
2
STANDARD
70
0
3

62
256
51
90.0
52
90.0
71
2
49
0.5
62
256
6
BYLAYER
49
-0.5
62
256
6
BYLAYER
0
LAYOUT
5
1E
102
{ACAD_REACTORS
330
1A
102
}
100
AcDbPlotSettings
1

2

4

6

40
0.0
41
0.0
42
0.0
43
0.0
44
0.0
45
0.0
46
0.0
47
0.0
48
0.0
49
0.0
140
0.0
141
0.0
142
1.0
143
1.0
70
0
72
0
73
0
74
0
7

75
0
147
1.0
148
0.0
149
0.0
100
AcDbLayout
1
Layout1
70
0
71
0
10
0.0
20
0.0
11
0.0
21
0.0
12
0.0
22
0.0
32
0.0
14
0.0
24
0.0
34
0.0
15
0.0
25
0.0
35
0.0
146
0.0
13
0.0
23
0.0
33
0.0
16
0.0
26
0.0
36
0.0
17
0.0
27
0.0
37
0.0
76
0
330
1B
331
0
345
0
346
0
0
LAYOUT
5
22
102
{ACAD_REACTORS
330
1A
102
}
100
AcDbPlotSettings
1

2

4

6

40
0.0
41
0.0
42
0.0
43
0.0
44
0.0
45
0.0
46
0.0
47
0.0
48
0.0
49
0.0
140
0.0
141
0.0
142
1.0
143
1.0
70
0
72
0
73
0
74
0
7

75
0
147
1.0
148
0.0
149
0.0
100
AcDbLayout
1
Model
70
0
71
0
10
0.0
20
0.0
11
0.0
21
0.0
12
0.0
22
0.0
32
0.0
14
0.0
24
0.0
34
0.0
15
0.0
25
0.0
35
0.0
146
0.0
13
0.0
23
0.0
33
0.0
16
0.0
26
0.0
36
0.0
17
0.0
27
0.0
37
0.0
76
0
330
1F
331
0
345
0
346
0
0
ENDSEC
0
EOF
